0
SECTION
2
HEADER
9
$INSUNITS
70
1
9
$ACADVER
1
AC1014
9
$HANDSEED
5
FFFF
0
ENDSEC
0
SECTION
2
TABLES
0
TABLE
2
VPORT
5
8
100
AcDbSymbolTable
0
ENDTAB
0
TABLE
2
LTYPE
5
5
100
AcDbSymbolTable
0
LTYPE
5
14
100
AcDbSymbolTableRecord
100
AcDbLinetypeTableRecord
2
BYBLOCK
70
0
0
LTYPE
5
15
100
AcDbSymbolTableRecord
100
AcDbLinetypeTableRecord
2
BYLAYER
70
0
0
ENDTAB
0
TABLE
2
LAYER
5
2
100
AcDbSymbolTable
70
2
0
LAYER
5
50
100
AcDbSymbolTableRecord
100
AcDbLayerTableRecord
2
0
70
0
6
CONTINUOUS
0
ENDTAB
0
TABLE
2
STYLE
5
3
100
AcDbSymbolTable
70
1
0
STYLE
5
11
100
AcDbSymbolTableRecord
100
AcDbTextStyleTableRecord
2
STANDARD
70
0
0
ENDTAB
0
TABLE
2
VIEW
5
6
100
AcDbSymbolTable
70
0
0
ENDTAB
0
TABLE
2
UCS
5
7
100
AcDbSymbolTable
70
0
0
ENDTAB
0
TABLE
2
APPID
5
9
100
AcDbSymbolTable
70
2
0
APPID
5
12
100
AcDbSymbolTableRecord
100
AcDbRegAppTableRecord
2
ACAD
70
0
0
ENDTAB
0
TABLE
2
DIMSTYLE
5
A
100
AcDbSymbolTable
70
1
0
ENDTAB
0
TABLE
2
BLOCK_RECORD
5
1
100
AcDbSymbolTable
70
1
0
BLOCK_RECORD
5
1F
100
AcDbSymbolTableRecord
100
AcDbBlockTableRecord
2
*MODEL_SPACE
0
BLOCK_RECORD
5
1B
100
AcDbSymbolTableRecord
100
AcDbBlockTableRecord
2
*PAPER_SPACE
0
ENDTAB
0
ENDSEC
0
SECTION
2
BLOCKS
0
BLOCK
5
20
100
AcDbEntity
100
AcDbBlockBegin
2
*MODEL_SPACE
0
ENDBLK
5
21
100
AcDbEntity
100
AcDbBlockEnd
0
BLOCK
5
1C
100
AcDbEntity
100
AcDbBlockBegin
2
*PAPER_SPACE
0
ENDBLK
5
1D
100
AcDbEntity
100
AcDbBlockEnd
0
ENDSEC
0
SECTION
2
ENTITIES
0
CIRCLE
5
100
100
AcDbEntity
8
0
100
AcDbCircle
10
68.529589616821852
20
-31.746100503665836
30
0
40
1.5000000000000007
210
0
220
0
230
1
0
CIRCLE
5
101
100
AcDbEntity
8
0
100
AcDbCircle
10
73.863833522965606
20
-31.835916280134356
30
0
40
1.5000000000000007
210
0
220
-0
230
1
0
CIRCLE
5
102
100
AcDbEntity
8
0
100
AcDbCircle
10
73.863833522965606
20
-31.835916280134356
30
0
40
1.9999999999999991
210
0
220
0
230
1
0
CIRCLE
5
103
100
AcDbEntity
8
0
100
AcDbCircle
10
81.861369446266707
20
-31.938443733846796
30
0
40
1.599999999999997
210
0
220
0
230
1
0
LWPOLYLINE
5
104
100
AcDbEntity
8
0
100
AcDbPolyline
90
8
70
1
43
0.0
10
87.474237959899071
20
-8.5387782176307017
10
85.440888411952912
20
-10.57212782699678
42
2.4142135623730128
10
85.440888413281527
20
-10.660098591900285
10
85.686983847931032
20
-10.906194019116148
42
2.4142135623728778
10
85.774954612834563
20
-10.906194017787517
10
87.808304160780651
20
-8.8728444084214395
42
2.4142135623728507
10
87.808304159452007
20
-8.7848736435179031
10
87.562208724802588
20
-8.5387782163020702
42
2.4142135623733116
0
LWPOLYLINE
5
105
100
AcDbEntity
8
0
100
AcDbPolyline
90
8
70
1
43
0.0
10
103.22768524499277
20
-28.358924122763948
10
105.26103479293899
20
-26.325574513397871
42
2.4142135623741803
10
105.26103479161033
20
-26.237603748494383
10
105.01493935696091
20
-25.991508321278545
42
2.4142135623700547
10
104.92696859205728
20
-25.991508322607192
10
102.89361904411116
20
-28.024857931973198
42
2.4142135623729857
10
102.89361904543979
20
-28.112828696876729
10
103.1397144800893
20
-28.358924124092564
42
2.4142135623746142
0
LWPOLYLINE
5
106
100
AcDbEntity
8
0
100
AcDbPolyline
90
3
70
1
43
0.0
10
78.325835593731583
20
-35.473977693177162
10
117.32583559373158
20
-35.473977104154955
10
78.325835004709376
20
3.5260223068228291
0
LWPOLYLINE
5
107
100
AcDbEntity
8
0
100
AcDbPolyline
90
8
70
1
43
0.0
10
110.27007913087407
20
-0.72385631844025644
10
110.02398368507417
20
-0.47776090237485691
42
2.4142135623730461
10
109.93601292017065
20
-0.47776090768939344
10
108.96332357205702
20
-1.4504503733283436
42
2.4142135623725278
10
108.96332357737157
20
-1.5384211382318735
10
109.20941902317142
20
-1.7845165542972239
42
2.4142135623732917
10
109.29738978807495
20
-1.7845165489826904
10
110.27007913618857
20
-0.81182708334378717
42
2.4142135623733827
0
LWPOLYLINE
5
108
100
AcDbEntity
8
0
100
AcDbPolyline
90
8
70
1
43
0.0
10
107.47032564344534
20
-22.702070100518497
10
109.50367525281139
20
-20.668720552572374
42
2.4142135623722805
10
109.50367525414003
20
-20.580749787668807
10
109.25757982692421
20
-20.334654353019406
42
2.4142135623735284
10
109.16960906202067
20
-20.334654351690745
10
107.13625945265461
20
-22.368003899636918
42
2.4142135623753753
10
107.13625945132598
20
-22.455974664540413
10
107.38235487854182
20
-22.702070099189864
42
2.4142135623731495
0
LWPOLYLINE
5
109
100
AcDbEntity
8
0
100
AcDbPolyline
90
8
70
1
43
0.0
10
91.097742598696769
20
-6.41745781934479
10
91.343838033346231
20
-6.6635532465606468
42
2.4142135623730949
10
91.431808798249747
20
-6.6635532452320154
10
93.465158346195906
20
-4.6302036358659358
42
2.4142135623730128
10
93.465158344867277
20
-4.5422328709624189
10
93.219062910217815
20
-4.296137443746578
42
2.4142135623730536
10
93.131092145314312
20
-4.2961374450752103
10
91.097742597368153
20
-6.3294870544412545
42
2.4142135623730674
0
LWPOLYLINE
5
110
100
AcDbEntity
8
0
100
AcDbPolyline
90
8
70
1
43
0.0
10
113.32205179551177
20
-3.7758290128124878
10
113.0759563794464
20
-3.5297335670126193
42
2.4142135623725656
10
112.98798561454285
20
-3.5297335616980736
10
112.01529614890393
20
-4.5024229098117496
42
2.4142135623738543
10
112.01529614358942
20
-4.5903936747152567
10
112.26139155965474
20
-4.8364891205150977
42
2.4142135623727143
10
112.34936232455829
20
-4.8364891258296483
10
113.32205179019722
20
-3.863799777715986
42
2.4142135623748868
0
LWPOLYLINE
5
111
100
AcDbEntity
8
0
100
AcDbPolyline
90
4
70
1
43
0.0
10
107.57583500470945
20
3.5260223068226928
10
78.325835004709432
20
3.5260223068228349
10
117.32583559373165
20
-35.473977104154933
10
117.32583559373172
20
-6.2239771041548737
0
CIRCLE
5
112
100
AcDbEntity
8
0
100
AcDbCircle
10
114.71808985082576
20
0.91827742688044955
30
0
40
1.6000000000000083
210
0
220
0
230
1
0
LWPOLYLINE
5
113
100
AcDbEntity
8
0
100
AcDbPolyline
90
8
70
1
43
0.0
10
110.73109033810637
20
1.6435594839029957
10
110.97718578390631
20
1.3974640678376535
42
2.4142135623726459
10
111.06515654880985
20
1.397464073152197
10
112.03784589692337
20
2.370153538791067
42
2.4142135623724368
10
112.03784589160882
20
2.4581243036946021
10
111.79175044580901
20
2.7042197197599953
42
2.4142135623725385
10
111.70377968090544
20
2.7042197144454678
10
110.73109033279182
20
1.7315302488065254
42
2.4142135623725305
0
LWPOLYLINE
5
114
100
AcDbEntity
8
0
100
AcDbPolyline
90
8
70
1
43
0.0
10
115.53134315448143
20
-3.0687219928921334
10
116.50403250259509
20
-2.0960325272532123
42
2.4142135623739165
10
116.50403249728058
20
-2.0080617623496866
10
116.25793705148072
20
-1.761966346284366
42
2.4142135623716148
10
116.16996628657714
20
-1.7619663515988779
10
115.19727693846357
20
-2.7346558172376949
42
2.4142135623721108
10
115.19727694377809
20
-2.8226265821412686
10
115.4433723895779
20
-3.0687219982066813
42
2.4142135623737118
0
LWPOLYLINE
5
115
100
AcDbEntity
8
0
100
AcDbPolyline
90
3
70
1
43
0.0
10
117.32583500470938
20
3.526022895845125
10
107.5758350047094
20
3.5260223068227856
10
117.32583559373172
20
-6.2239771041548462
0
CIRCLE
5
116
100
AcDbEntity
8
0
100
AcDbCircle
10
120.52743639297921
20
1.2689612578708898
30
0
40
1.5000000000000007
210
0
220
-0
230
1
0
CIRCLE
5
117
100
AcDbEntity
8
0
100
AcDbCircle
10
120.52743639297921
20
6.4839612578708898
30
0
40
1.5000000000000007
210
0
220
-0
230
1
0
LWPOLYLINE
5
118
100
AcDbEntity
8
0
100
AcDbPolyline
90
4
70
1
43
0.0
10
122.77743639297923
20
6.4839612578708898
10
122.77743639297923
20
1.2689612578708902
42
-0.99999999999999989
10
118.27743639297921
20
1.2689612578708898
10
118.27743639297921
20
6.4839612578708898
42
-0.99999999999999989
0
LWPOLYLINE
5
119
100
AcDbEntity
8
0
100
AcDbPolyline
90
11
70
1
43
0.0
10
67.414364083611943
20
-0.26550785984267006
42
-0.773901705452268
10
67.462928373899246
20
-0.078092131497043485
10
72.827015771079502
20
-0.078092050482523614
42
-0.99999999999999989
10
72.827015808837331
20
-2.5780920504825224
10
71.577015808837317
20
-2.5780920693614409
10
70.299257650495406
20
-1.8682264510925173
42
2.4142135623728551
10
70.214671653713381
20
-1.8923938801263238
10
70.015443338543662
20
-2.2510048601898656
10
67.392971488174865
20
-0.7940761062615187
10
67.592199803344585
20
-0.43546512619796468
42
2.4142135623729994
10
67.568032374310789
20
-0.35087912941594568
0
CIRCLE
5
120
100
AcDbEntity
8
0
100
AcDbCircle
10
72.827015789958423
20
-1.3280920504825231
30
0
40
0.6000000000000002
210
0
220
-0
230
1
0
ARC
5
121
100
AcDbEntity
8
0
100
AcDbCircle
10
73.410207298192645
20
-8.0252323471028575
30
0
40
0.35000000000000125
210
-0
220
0
230
1
100
AcDbArc
50
-56.309931608672791
51
90.000000865345839
0
LINE
5
122
100
AcDbEntity
8
0
100
AcDbLine
10
73.604352371269783
20
-8.3164499471889002
30
0
11
73.478214013769588
21
-8.4005421882741498
31
0
0
ARC
5
123
100
AcDbEntity
8
0
100
AcDbCircle
10
73.426456555036637
20
-8.4350471618919105
30
0
40
0.06220472440945278
210
0
220
-0
230
1
100
AcDbArc
50
33.690068391329476
51
303.6900683913131
0
LINE
5
124
100
AcDbEntity
8
0
100
AcDbLine
10
73.46096152865438
20
-8.4868046206248664
30
0
11
73.688519645804405
21
-8.8281417851801685
31
0
0
LINE
5
125
100
AcDbEntity
8
0
100
AcDbLine
10
73.688519645804405
20
-8.8281417851801685
30
0
11
72.440444216864194
21
-9.6601920983678475
31
0
0
LINE
5
126
100
AcDbEntity
8
0
100
AcDbLine
10
72.440444216864194
20
-9.6601920983678475
30
0
11
72.212886099714183
21
-9.3188549338125721
31
0
0
ARC
5
127
100
AcDbEntity
8
0
100
AcDbCircle
10
72.178381126096426
20
-9.267097475079618
30
0
40
0.062204724409451226
210
0
220
0
230
1
100
AcDbArc
50
-56.309931608675079
51
213.69006839131814
0
LINE
5
128
100
AcDbEntity
8
0
100
AcDbLine
10
72.126623667363461
20
-9.3016024486973734
30
0
11
71.566178796318994
21
-9.6752323749534845
31
0
0
LINE
5
129
100
AcDbEntity
8
0
100
AcDbLine
10
71.566178796318994
20
-9.6752323749534845
30
0
11
70.566178796318994
21
-9.6752323900566175
31
0
0
ARC
5
130
100
AcDbEntity
8
0
100
AcDbCircle
10
70.566178781215868
20
-8.6752323900566175
30
0
40
0.99999999999999978
210
0
220
0
230
1
100
AcDbArc
50
90.00000086534456
51
270.00000086534538
0
LINE
5
131
100
AcDbEntity
8
0
100
AcDbLine
10
70.566178766112756
20
-7.6752323900566166
30
0
11
73.410207292906549
21
-7.6752323471028578
31
0
0
CIRCLE
5
132
100
AcDbEntity
8
0
100
AcDbCircle
10
70.566178781215868
20
-8.6752323900566175
30
0
40
0.6000000000000002
210
0
220
0
230
1
0
ENDSEC
0
SECTION
2
OBJECTS
0
DICTIONARY
5
C
100
AcDbDictionary
3
ACAD_GROUP
350
D
3
ACAD_MLINESTYLE
350
17
0
DICTIONARY
5
D
100
AcDbDictionary
0
DICTIONARY
5
1A
330
C
100
AcDbDictionary
0
DICTIONARY
5
17
100
AcDbDictionary
0
ENDSEC
0
EOF
